ISO-10303-21;
HEADER;
/* Generated by software containing ST-Developer
 * from STEP Tools, Inc. (www.steptools.com) 
 */

FILE_DESCRIPTION(
/* description */ (''),
/* implementation_level */ '2;1');

FILE_NAME(
/* name */ '',
/* time_stamp */ '2024-05-24T17:58:45+09:00',
/* author */ (''),
/* organization */ (''),
/* preprocessor_version */ 'ST-DEVELOPER v20',
/* originating_system */ 'Autodesk Translation Framework v12.20.1.177',

/* authorisation */ '');

FILE_SCHEMA (('AUTOMOTIVE_DESIGN { 1 0 10303 214 3 1 1 }'));
ENDSEC;

DATA;
#10=MECHANICAL_DESIGN_GEOMETRIC_PRESENTATION_REPRESENTATION('',(#13),#726);
#11=SHAPE_REPRESENTATION_RELATIONSHIP('SRR','None',#733,#12);
#12=ADVANCED_BREP_SHAPE_REPRESENTATION('',(#14),#725);
#13=STYLED_ITEM('',(#742),#14);
#14=MANIFOLD_SOLID_BREP('\X2\30DC30C730A3\X0\1',#430);
#15=FACE_BOUND('',#63,.T.);
#16=FACE_BOUND('',#66,.T.);
#17=FACE_BOUND('',#81,.T.);
#18=FACE_BOUND('',#83,.T.);
#19=FACE_BOUND('',#84,.T.);
#20=FACE_BOUND('',#89,.T.);
#21=FACE_BOUND('',#90,.T.);
#22=FACE_BOUND('',#91,.T.);
#23=PLANE('',#447);
#24=PLANE('',#452);
#25=PLANE('',#458);
#26=PLANE('',#459);
#27=PLANE('',#463);
#28=PLANE('',#464);
#29=PLANE('',#468);
#30=PLANE('',#475);
#31=PLANE('',#476);
#32=PLANE('',#477);
#33=PLANE('',#478);
#34=PLANE('',#479);
#35=PLANE('',#480);
#36=PLANE('',#481);
#37=PLANE('',#482);
#38=FACE_OUTER_BOUND('',#61,.T.);
#39=FACE_OUTER_BOUND('',#62,.T.);
#40=FACE_OUTER_BOUND('',#64,.T.);
#41=FACE_OUTER_BOUND('',#65,.T.);
#42=FACE_OUTER_BOUND('',#67,.T.);
#43=FACE_OUTER_BOUND('',#68,.T.);
#44=FACE_OUTER_BOUND('',#69,.T.);
#45=FACE_OUTER_BOUND('',#70,.T.);
#46=FACE_OUTER_BOUND('',#71,.T.);
#47=FACE_OUTER_BOUND('',#72,.T.);
#48=FACE_OUTER_BOUND('',#73,.T.);
#49=FACE_OUTER_BOUND('',#74,.T.);
#50=FACE_OUTER_BOUND('',#75,.T.);
#51=FACE_OUTER_BOUND('',#76,.T.);
#52=FACE_OUTER_BOUND('',#77,.T.);
#53=FACE_OUTER_BOUND('',#78,.T.);
#54=FACE_OUTER_BOUND('',#79,.T.);
#55=FACE_OUTER_BOUND('',#80,.T.);
#56=FACE_OUTER_BOUND('',#82,.T.);
#57=FACE_OUTER_BOUND('',#85,.T.);
#58=FACE_OUTER_BOUND('',#86,.T.);
#59=FACE_OUTER_BOUND('',#87,.T.);
#60=FACE_OUTER_BOUND('',#88,.T.);
#61=EDGE_LOOP('',(#285,#286,#287,#288));
#62=EDGE_LOOP('',(#289));
#63=EDGE_LOOP('',(#290));
#64=EDGE_LOOP('',(#291,#292,#293,#294));
#65=EDGE_LOOP('',(#295));
#66=EDGE_LOOP('',(#296));
#67=EDGE_LOOP('',(#297,#298,#299,#300));
#68=EDGE_LOOP('',(#301,#302,#303,#304));
#69=EDGE_LOOP('',(#305,#306,#307,#308));
#70=EDGE_LOOP('',(#309,#310,#311,#312));
#71=EDGE_LOOP('',(#313,#314,#315,#316));
#72=EDGE_LOOP('',(#317,#318,#319,#320));
#73=EDGE_LOOP('',(#321,#322,#323,#324,#325,#326,#327,#328,#329,#330,#331,
#332,#333,#334));
#74=EDGE_LOOP('',(#335,#336,#337,#338));
#75=EDGE_LOOP('',(#339,#340));
#76=EDGE_LOOP('',(#341,#342,#343,#344));
#77=EDGE_LOOP('',(#345,#346,#347,#348));
#78=EDGE_LOOP('',(#349,#350,#351,#352));
#79=EDGE_LOOP('',(#353,#354,#355,#356));
#80=EDGE_LOOP('',(#357,#358,#359,#360,#361,#362,#363));
#81=EDGE_LOOP('',(#364));
#82=EDGE_LOOP('',(#365,#366,#367,#368,#369,#370,#371,#372,#373,#374,#375));
#83=EDGE_LOOP('',(#376));
#84=EDGE_LOOP('',(#377));
#85=EDGE_LOOP('',(#378,#379,#380,#381,#382,#383));
#86=EDGE_LOOP('',(#384,#385,#386,#387));
#87=EDGE_LOOP('',(#388,#389,#390,#391));
#88=EDGE_LOOP('',(#392,#393,#394,#395));
#89=EDGE_LOOP('',(#396));
#90=EDGE_LOOP('',(#397));
#91=EDGE_LOOP('',(#398));
#92=LINE('',#609,#133);
#93=LINE('',#618,#134);
#94=LINE('',#625,#135);
#95=LINE('',#629,#136);
#96=LINE('',#634,#137);
#97=LINE('',#636,#138);
#98=LINE('',#638,#139);
#99=LINE('',#639,#140);
#100=LINE('',#643,#141);
#101=LINE('',#645,#142);
#102=LINE('',#647,#143);
#103=LINE('',#648,#144);
#104=LINE('',#653,#145);
#105=LINE('',#656,#146);
#106=LINE('',#658,#147);
#107=LINE('',#660,#148);
#108=LINE('',#662,#149);
#109=LINE('',#664,#150);
#110=LINE('',#666,#151);
#111=LINE('',#668,#152);
#112=LINE('',#670,#153);
#113=LINE('',#672,#154);
#114=LINE('',#674,#155);
#115=LINE('',#675,#156);
#116=LINE('',#684,#157);
#117=LINE('',#691,#158);
#118=LINE('',#694,#159);
#119=LINE('',#696,#160);
#120=LINE('',#697,#161);
#121=LINE('',#700,#162);
#122=LINE('',#702,#163);
#123=LINE('',#703,#164);
#124=LINE('',#705,#165);
#125=LINE('',#708,#166);
#126=LINE('',#710,#167);
#127=LINE('',#711,#168);
#128=LINE('',#714,#169);
#129=LINE('',#715,#170);
#130=LINE('',#718,#171);
#131=LINE('',#719,#172);
#132=LINE('',#721,#173);
#133=VECTOR('',#489,7.);
#134=VECTOR('',#500,6.99999999999999);
#135=VECTOR('',#509,5.);
#136=VECTOR('',#514,5.);
#137=VECTOR('',#519,10.);
#138=VECTOR('',#520,10.);
#139=VECTOR('',#521,10.);
#140=VECTOR('',#522,10.);
#141=VECTOR('',#525,10.);
#142=VECTOR('',#526,10.);
#143=VECTOR('',#527,10.);
#144=VECTOR('',#528,10.);
#145=VECTOR('',#537,10.);
#146=VECTOR('',#540,10.);
#147=VECTOR('',#541,10.);
#148=VECTOR('',#542,10.);
#149=VECTOR('',#543,10.);
#150=VECTOR('',#544,10.);
#151=VECTOR('',#545,10.);
#152=VECTOR('',#546,10.);
#153=VECTOR('',#547,10.);
#154=VECTOR('',#548,10.);
#155=VECTOR('',#549,10.);
#156=VECTOR('',#550,10.);
#157=VECTOR('',#563,15.);
#158=VECTOR('',#570,10.);
#159=VECTOR('',#573,10.);
#160=VECTOR('',#576,10.);
#161=VECTOR('',#577,10.);
#162=VECTOR('',#580,10.);
#163=VECTOR('',#581,10.);
#164=VECTOR('',#582,10.);
#165=VECTOR('',#585,10.);
#166=VECTOR('',#588,10.);
#167=VECTOR('',#589,10.);
#168=VECTOR('',#590,10.);
#169=VECTOR('',#593,10.);
#170=VECTOR('',#594,10.);
#171=VECTOR('',#597,10.);
#172=VECTOR('',#598,10.);
#173=VECTOR('',#601,10.);
#174=CIRCLE('',#445,7.);
#175=CIRCLE('',#446,7.);
#176=CIRCLE('',#448,5.);
#177=CIRCLE('',#450,6.99999999999999);
#178=CIRCLE('',#451,6.99999999999999);
#179=CIRCLE('',#453,5.);
#180=CIRCLE('',#455,5.);
#181=CIRCLE('',#457,5.);
#182=CIRCLE('',#461,4.99999999999999);
#183=CIRCLE('',#462,4.99999999999999);
#184=CIRCLE('',#466,20.);
#185=CIRCLE('',#467,20.);
#186=CIRCLE('',#470,15.);
#187=CIRCLE('',#471,15.);
#188=CIRCLE('',#473,25.);
#189=CIRCLE('',#474,25.);
#190=VERTEX_POINT('',#606);
#191=VERTEX_POINT('',#608);
#192=VERTEX_POINT('',#612);
#193=VERTEX_POINT('',#615);
#194=VERTEX_POINT('',#617);
#195=VERTEX_POINT('',#621);
#196=VERTEX_POINT('',#624);
#197=VERTEX_POINT('',#628);
#198=VERTEX_POINT('',#632);
#199=VERTEX_POINT('',#633);
#200=VERTEX_POINT('',#635);
#201=VERTEX_POINT('',#637);
#202=VERTEX_POINT('',#641);
#203=VERTEX_POINT('',#642);
#204=VERTEX_POINT('',#644);
#205=VERTEX_POINT('',#646);
#206=VERTEX_POINT('',#655);
#207=VERTEX_POINT('',#657);
#208=VERTEX_POINT('',#659);
#209=VERTEX_POINT('',#661);
#210=VERTEX_POINT('',#663);
#211=VERTEX_POINT('',#665);
#212=VERTEX_POINT('',#667);
#213=VERTEX_POINT('',#669);
#214=VERTEX_POINT('',#671);
#215=VERTEX_POINT('',#673);
#216=VERTEX_POINT('',#681);
#217=VERTEX_POINT('',#683);
#218=VERTEX_POINT('',#687);
#219=VERTEX_POINT('',#688);
#220=VERTEX_POINT('',#690);
#221=VERTEX_POINT('',#692);
#222=VERTEX_POINT('',#699);
#223=VERTEX_POINT('',#701);
#224=VERTEX_POINT('',#707);
#225=VERTEX_POINT('',#709);
#226=VERTEX_POINT('',#713);
#227=VERTEX_POINT('',#717);
#228=EDGE_CURVE('',#190,#190,#174,.T.);
#229=EDGE_CURVE('',#190,#191,#92,.T.);
#230=EDGE_CURVE('',#191,#191,#175,.T.);
#231=EDGE_CURVE('',#192,#192,#176,.T.);
#232=EDGE_CURVE('',#193,#193,#177,.T.);
#233=EDGE_CURVE('',#193,#194,#93,.T.);
#234=EDGE_CURVE('',#194,#194,#178,.T.);
#235=EDGE_CURVE('',#195,#195,#179,.T.);
#236=EDGE_CURVE('',#192,#196,#94,.T.);
#237=EDGE_CURVE('',#196,#196,#180,.T.);
#238=EDGE_CURVE('',#195,#197,#95,.T.);
#239=EDGE_CURVE('',#197,#197,#181,.T.);
#240=EDGE_CURVE('',#198,#199,#96,.T.);
#241=EDGE_CURVE('',#200,#198,#97,.T.);
#242=EDGE_CURVE('',#200,#201,#98,.T.);
#243=EDGE_CURVE('',#199,#201,#99,.T.);
#244=EDGE_CURVE('',#202,#203,#100,.T.);
#245=EDGE_CURVE('',#202,#204,#101,.T.);
#246=EDGE_CURVE('',#204,#205,#102,.T.);
#247=EDGE_CURVE('',#203,#205,#103,.T.);
#248=EDGE_CURVE('',#199,#202,#182,.T.);
#249=EDGE_CURVE('',#201,#204,#183,.T.);
#250=EDGE_CURVE('',#205,#200,#104,.T.);
#251=EDGE_CURVE('',#206,#198,#105,.T.);
#252=EDGE_CURVE('',#207,#206,#106,.T.);
#253=EDGE_CURVE('',#207,#208,#107,.T.);
#254=EDGE_CURVE('',#208,#209,#108,.T.);
#255=EDGE_CURVE('',#209,#210,#109,.T.);
#256=EDGE_CURVE('',#210,#211,#110,.T.);
#257=EDGE_CURVE('',#211,#212,#111,.T.);
#258=EDGE_CURVE('',#212,#213,#112,.T.);
#259=EDGE_CURVE('',#213,#214,#113,.T.);
#260=EDGE_CURVE('',#214,#215,#114,.T.);
#261=EDGE_CURVE('',#203,#215,#115,.T.);
#262=EDGE_CURVE('',#213,#210,#184,.T.);
#263=EDGE_CURVE('',#212,#211,#185,.T.);
#264=EDGE_CURVE('',#216,#216,#186,.T.);
#265=EDGE_CURVE('',#216,#217,#116,.T.);
#266=EDGE_CURVE('',#217,#217,#187,.T.);
#267=EDGE_CURVE('',#218,#219,#188,.T.);
#268=EDGE_CURVE('',#218,#220,#117,.T.);
#269=EDGE_CURVE('',#220,#221,#189,.T.);
#270=EDGE_CURVE('',#219,#221,#118,.T.);
#271=EDGE_CURVE('',#215,#218,#119,.T.);
#272=EDGE_CURVE('',#214,#220,#120,.T.);
#273=EDGE_CURVE('',#219,#222,#121,.T.);
#274=EDGE_CURVE('',#221,#223,#122,.T.);
#275=EDGE_CURVE('',#222,#223,#123,.T.);
#276=EDGE_CURVE('',#223,#209,#124,.T.);
#277=EDGE_CURVE('',#222,#224,#125,.T.);
#278=EDGE_CURVE('',#224,#225,#126,.T.);
#279=EDGE_CURVE('',#225,#206,#127,.T.);
#280=EDGE_CURVE('',#208,#226,#128,.T.);
#281=EDGE_CURVE('',#226,#224,#129,.T.);
#282=EDGE_CURVE('',#226,#227,#130,.T.);
#283=EDGE_CURVE('',#227,#225,#131,.T.);
#284=EDGE_CURVE('',#227,#207,#132,.T.);
#285=ORIENTED_EDGE('',*,*,#228,.F.);
#286=ORIENTED_EDGE('',*,*,#229,.T.);
#287=ORIENTED_EDGE('',*,*,#230,.T.);
#288=ORIENTED_EDGE('',*,*,#229,.F.);
#289=ORIENTED_EDGE('',*,*,#230,.F.);
#290=ORIENTED_EDGE('',*,*,#231,.F.);
#291=ORIENTED_EDGE('',*,*,#232,.F.);
#292=ORIENTED_EDGE('',*,*,#233,.T.);
#293=ORIENTED_EDGE('',*,*,#234,.T.);
#294=ORIENTED_EDGE('',*,*,#233,.F.);
#295=ORIENTED_EDGE('',*,*,#234,.F.);
#296=ORIENTED_EDGE('',*,*,#235,.F.);
#297=ORIENTED_EDGE('',*,*,#231,.T.);
#298=ORIENTED_EDGE('',*,*,#236,.T.);
#299=ORIENTED_EDGE('',*,*,#237,.F.);
#300=ORIENTED_EDGE('',*,*,#236,.F.);
#301=ORIENTED_EDGE('',*,*,#235,.T.);
#302=ORIENTED_EDGE('',*,*,#238,.T.);
#303=ORIENTED_EDGE('',*,*,#239,.F.);
#304=ORIENTED_EDGE('',*,*,#238,.F.);
#305=ORIENTED_EDGE('',*,*,#240,.F.);
#306=ORIENTED_EDGE('',*,*,#241,.F.);
#307=ORIENTED_EDGE('',*,*,#242,.T.);
#308=ORIENTED_EDGE('',*,*,#243,.F.);
#309=ORIENTED_EDGE('',*,*,#244,.F.);
#310=ORIENTED_EDGE('',*,*,#245,.T.);
#311=ORIENTED_EDGE('',*,*,#246,.T.);
#312=ORIENTED_EDGE('',*,*,#247,.F.);
#313=ORIENTED_EDGE('',*,*,#248,.F.);
#314=ORIENTED_EDGE('',*,*,#243,.T.);
#315=ORIENTED_EDGE('',*,*,#249,.T.);
#316=ORIENTED_EDGE('',*,*,#245,.F.);
#317=ORIENTED_EDGE('',*,*,#249,.F.);
#318=ORIENTED_EDGE('',*,*,#242,.F.);
#319=ORIENTED_EDGE('',*,*,#250,.F.);
#320=ORIENTED_EDGE('',*,*,#246,.F.);
#321=ORIENTED_EDGE('',*,*,#247,.T.);
#322=ORIENTED_EDGE('',*,*,#250,.T.);
#323=ORIENTED_EDGE('',*,*,#241,.T.);
#324=ORIENTED_EDGE('',*,*,#251,.F.);
#325=ORIENTED_EDGE('',*,*,#252,.F.);
#326=ORIENTED_EDGE('',*,*,#253,.T.);
#327=ORIENTED_EDGE('',*,*,#254,.T.);
#328=ORIENTED_EDGE('',*,*,#255,.T.);
#329=ORIENTED_EDGE('',*,*,#256,.T.);
#330=ORIENTED_EDGE('',*,*,#257,.T.);
#331=ORIENTED_EDGE('',*,*,#258,.T.);
#332=ORIENTED_EDGE('',*,*,#259,.T.);
#333=ORIENTED_EDGE('',*,*,#260,.T.);
#334=ORIENTED_EDGE('',*,*,#261,.F.);
#335=ORIENTED_EDGE('',*,*,#262,.F.);
#336=ORIENTED_EDGE('',*,*,#258,.F.);
#337=ORIENTED_EDGE('',*,*,#263,.T.);
#338=ORIENTED_EDGE('',*,*,#256,.F.);
#339=ORIENTED_EDGE('',*,*,#257,.F.);
#340=ORIENTED_EDGE('',*,*,#263,.F.);
#341=ORIENTED_EDGE('',*,*,#264,.F.);
#342=ORIENTED_EDGE('',*,*,#265,.T.);
#343=ORIENTED_EDGE('',*,*,#266,.F.);
#344=ORIENTED_EDGE('',*,*,#265,.F.);
#345=ORIENTED_EDGE('',*,*,#267,.F.);
#346=ORIENTED_EDGE('',*,*,#268,.T.);
#347=ORIENTED_EDGE('',*,*,#269,.T.);
#348=ORIENTED_EDGE('',*,*,#270,.F.);
#349=ORIENTED_EDGE('',*,*,#271,.F.);
#350=ORIENTED_EDGE('',*,*,#260,.F.);
#351=ORIENTED_EDGE('',*,*,#272,.T.);
#352=ORIENTED_EDGE('',*,*,#268,.F.);
#353=ORIENTED_EDGE('',*,*,#273,.F.);
#354=ORIENTED_EDGE('',*,*,#270,.T.);
#355=ORIENTED_EDGE('',*,*,#274,.T.);
#356=ORIENTED_EDGE('',*,*,#275,.F.);
#357=ORIENTED_EDGE('',*,*,#262,.T.);
#358=ORIENTED_EDGE('',*,*,#255,.F.);
#359=ORIENTED_EDGE('',*,*,#276,.F.);
#360=ORIENTED_EDGE('',*,*,#274,.F.);
#361=ORIENTED_EDGE('',*,*,#269,.F.);
#362=ORIENTED_EDGE('',*,*,#272,.F.);
#363=ORIENTED_EDGE('',*,*,#259,.F.);
#364=ORIENTED_EDGE('',*,*,#264,.T.);
#365=ORIENTED_EDGE('',*,*,#244,.T.);
#366=ORIENTED_EDGE('',*,*,#261,.T.);
#367=ORIENTED_EDGE('',*,*,#271,.T.);
#368=ORIENTED_EDGE('',*,*,#267,.T.);
#369=ORIENTED_EDGE('',*,*,#273,.T.);
#370=ORIENTED_EDGE('',*,*,#277,.T.);
#371=ORIENTED_EDGE('',*,*,#278,.T.);
#372=ORIENTED_EDGE('',*,*,#279,.T.);
#373=ORIENTED_EDGE('',*,*,#251,.T.);
#374=ORIENTED_EDGE('',*,*,#240,.T.);
#375=ORIENTED_EDGE('',*,*,#248,.T.);
#376=ORIENTED_EDGE('',*,*,#228,.T.);
#377=ORIENTED_EDGE('',*,*,#232,.T.);
#378=ORIENTED_EDGE('',*,*,#275,.T.);
#379=ORIENTED_EDGE('',*,*,#276,.T.);
#380=ORIENTED_EDGE('',*,*,#254,.F.);
#381=ORIENTED_EDGE('',*,*,#280,.T.);
#382=ORIENTED_EDGE('',*,*,#281,.T.);
#383=ORIENTED_EDGE('',*,*,#277,.F.);
#384=ORIENTED_EDGE('',*,*,#282,.T.);
#385=ORIENTED_EDGE('',*,*,#283,.T.);
#386=ORIENTED_EDGE('',*,*,#278,.F.);
#387=ORIENTED_EDGE('',*,*,#281,.F.);
#388=ORIENTED_EDGE('',*,*,#284,.T.);
#389=ORIENTED_EDGE('',*,*,#252,.T.);
#390=ORIENTED_EDGE('',*,*,#279,.F.);
#391=ORIENTED_EDGE('',*,*,#283,.F.);
#392=ORIENTED_EDGE('',*,*,#284,.F.);
#393=ORIENTED_EDGE('',*,*,#282,.F.);
#394=ORIENTED_EDGE('',*,*,#280,.F.);
#395=ORIENTED_EDGE('',*,*,#253,.F.);
#396=ORIENTED_EDGE('',*,*,#237,.T.);
#397=ORIENTED_EDGE('',*,*,#239,.T.);
#398=ORIENTED_EDGE('',*,*,#266,.T.);
#399=CYLINDRICAL_SURFACE('',#444,7.);
#400=CYLINDRICAL_SURFACE('',#449,6.99999999999999);
#401=CYLINDRICAL_SURFACE('',#454,5.);
#402=CYLINDRICAL_SURFACE('',#456,5.);
#403=CYLINDRICAL_SURFACE('',#460,4.99999999999999);
#404=CYLINDRICAL_SURFACE('',#465,20.);
#405=CYLINDRICAL_SURFACE('',#469,15.);
#406=CYLINDRICAL_SURFACE('',#472,25.);
#407=ADVANCED_FACE('',(#38),#399,.F.);
#408=ADVANCED_FACE('',(#39,#15),#23,.T.);
#409=ADVANCED_FACE('',(#40),#400,.F.);
#410=ADVANCED_FACE('',(#41,#16),#24,.T.);
#411=ADVANCED_FACE('',(#42),#401,.F.);
#412=ADVANCED_FACE('',(#43),#402,.F.);
#413=ADVANCED_FACE('',(#44),#25,.F.);
#414=ADVANCED_FACE('',(#45),#26,.F.);
#415=ADVANCED_FACE('',(#46),#403,.F.);
#416=ADVANCED_FACE('',(#47),#27,.T.);
#417=ADVANCED_FACE('',(#48),#28,.T.);
#418=ADVANCED_FACE('',(#49),#404,.F.);
#419=ADVANCED_FACE('',(#50),#29,.T.);
#420=ADVANCED_FACE('',(#51),#405,.F.);
#421=ADVANCED_FACE('',(#52),#406,.F.);
#422=ADVANCED_FACE('',(#53),#30,.F.);
#423=ADVANCED_FACE('',(#54),#31,.F.);
#424=ADVANCED_FACE('',(#55,#17),#32,.T.);
#425=ADVANCED_FACE('',(#56,#18,#19),#33,.T.);
#426=ADVANCED_FACE('',(#57),#34,.T.);
#427=ADVANCED_FACE('',(#58),#35,.T.);
#428=ADVANCED_FACE('',(#59),#36,.T.);
#429=ADVANCED_FACE('',(#60,#20,#21,#22),#37,.F.);
#430=CLOSED_SHELL('',(#407,#408,#409,#410,#411,#412,#413,#414,#415,#416,
#417,#418,#419,#420,#421,#422,#423,#424,#425,#426,#427,#428,#429));
#431=DERIVED_UNIT_ELEMENT(#433,1.);
#432=DERIVED_UNIT_ELEMENT(#728,-3.);
#433=(
MASS_UNIT()
NAMED_UNIT(*)
SI_UNIT(.KILO.,.GRAM.)
);
#434=DERIVED_UNIT((#431,#432));
#435=MEASURE_REPRESENTATION_ITEM('density measure',
POSITIVE_RATIO_MEASURE(7850.),#434);
#436=PROPERTY_DEFINITION_REPRESENTATION(#441,#438);
#437=PROPERTY_DEFINITION_REPRESENTATION(#442,#439);
#438=REPRESENTATION('material name',(#440),#725);
#439=REPRESENTATION('density',(#435),#725);
#440=DESCRIPTIVE_REPRESENTATION_ITEM('\X2\92FC\X0\','\X2\92FC\X0\');
#441=PROPERTY_DEFINITION('material property','material name',#735);
#442=PROPERTY_DEFINITION('material property','density of part',#735);
#443=AXIS2_PLACEMENT_3D('',#604,#483,#484);
#444=AXIS2_PLACEMENT_3D('',#605,#485,#486);
#445=AXIS2_PLACEMENT_3D('',#607,#487,#488);
#446=AXIS2_PLACEMENT_3D('',#610,#490,#491);
#447=AXIS2_PLACEMENT_3D('',#611,#492,#493);
#448=AXIS2_PLACEMENT_3D('',#613,#494,#495);
#449=AXIS2_PLACEMENT_3D('',#614,#496,#497);
#450=AXIS2_PLACEMENT_3D('',#616,#498,#499);
#451=AXIS2_PLACEMENT_3D('',#619,#501,#502);
#452=AXIS2_PLACEMENT_3D('',#620,#503,#504);
#453=AXIS2_PLACEMENT_3D('',#622,#505,#506);
#454=AXIS2_PLACEMENT_3D('',#623,#507,#508);
#455=AXIS2_PLACEMENT_3D('',#626,#510,#511);
#456=AXIS2_PLACEMENT_3D('',#627,#512,#513);
#457=AXIS2_PLACEMENT_3D('',#630,#515,#516);
#458=AXIS2_PLACEMENT_3D('',#631,#517,#518);
#459=AXIS2_PLACEMENT_3D('',#640,#523,#524);
#460=AXIS2_PLACEMENT_3D('',#649,#529,#530);
#461=AXIS2_PLACEMENT_3D('',#650,#531,#532);
#462=AXIS2_PLACEMENT_3D('',#651,#533,#534);
#463=AXIS2_PLACEMENT_3D('',#652,#535,#536);
#464=AXIS2_PLACEMENT_3D('',#654,#538,#539);
#465=AXIS2_PLACEMENT_3D('',#676,#551,#552);
#466=AXIS2_PLACEMENT_3D('',#677,#553,#554);
#467=AXIS2_PLACEMENT_3D('',#678,#555,#556);
#468=AXIS2_PLACEMENT_3D('',#679,#557,#558);
#469=AXIS2_PLACEMENT_3D('',#680,#559,#560);
#470=AXIS2_PLACEMENT_3D('',#682,#561,#562);
#471=AXIS2_PLACEMENT_3D('',#685,#564,#565);
#472=AXIS2_PLACEMENT_3D('',#686,#566,#567);
#473=AXIS2_PLACEMENT_3D('',#689,#568,#569);
#474=AXIS2_PLACEMENT_3D('',#693,#571,#572);
#475=AXIS2_PLACEMENT_3D('',#695,#574,#575);
#476=AXIS2_PLACEMENT_3D('',#698,#578,#579);
#477=AXIS2_PLACEMENT_3D('',#704,#583,#584);
#478=AXIS2_PLACEMENT_3D('',#706,#586,#587);
#479=AXIS2_PLACEMENT_3D('',#712,#591,#592);
#480=AXIS2_PLACEMENT_3D('',#716,#595,#596);
#481=AXIS2_PLACEMENT_3D('',#720,#599,#600);
#482=AXIS2_PLACEMENT_3D('',#722,#602,#603);
#483=DIRECTION('axis',(0.,0.,1.));
#484=DIRECTION('refdir',(1.,0.,0.));
#485=DIRECTION('center_axis',(0.,0.,-1.));
#486=DIRECTION('ref_axis',(-1.,0.,0.));
#487=DIRECTION('center_axis',(0.,0.,-1.));
#488=DIRECTION('ref_axis',(-1.,0.,0.));
#489=DIRECTION('',(0.,0.,-1.));
#490=DIRECTION('center_axis',(0.,0.,-1.));
#491=DIRECTION('ref_axis',(-1.,0.,0.));
#492=DIRECTION('center_axis',(0.,0.,1.));
#493=DIRECTION('ref_axis',(-1.,0.,0.));
#494=DIRECTION('center_axis',(0.,0.,1.));
#495=DIRECTION('ref_axis',(-1.,0.,0.));
#496=DIRECTION('center_axis',(0.,0.,-1.));
#497=DIRECTION('ref_axis',(-1.,0.,0.));
#498=DIRECTION('center_axis',(0.,0.,-1.));
#499=DIRECTION('ref_axis',(-1.,0.,0.));
#500=DIRECTION('',(0.,0.,-1.));
#501=DIRECTION('center_axis',(0.,0.,-1.));
#502=DIRECTION('ref_axis',(-1.,0.,0.));
#503=DIRECTION('center_axis',(0.,0.,1.));
#504=DIRECTION('ref_axis',(-1.,0.,0.));
#505=DIRECTION('center_axis',(0.,0.,1.));
#506=DIRECTION('ref_axis',(-1.,0.,0.));
#507=DIRECTION('center_axis',(0.,0.,-1.));
#508=DIRECTION('ref_axis',(-1.,0.,0.));
#509=DIRECTION('',(0.,0.,-1.));
#510=DIRECTION('center_axis',(0.,0.,1.));
#511=DIRECTION('ref_axis',(-1.,0.,0.));
#512=DIRECTION('center_axis',(0.,0.,-1.));
#513=DIRECTION('ref_axis',(-1.,0.,0.));
#514=DIRECTION('',(0.,0.,-1.));
#515=DIRECTION('center_axis',(0.,0.,1.));
#516=DIRECTION('ref_axis',(-1.,0.,0.));
#517=DIRECTION('center_axis',(-1.,0.,0.));
#518=DIRECTION('ref_axis',(0.,1.,0.));
#519=DIRECTION('',(0.,1.,0.));
#520=DIRECTION('',(0.,0.,1.));
#521=DIRECTION('',(0.,1.,0.));
#522=DIRECTION('',(0.,0.,-1.));
#523=DIRECTION('center_axis',(1.,0.,0.));
#524=DIRECTION('ref_axis',(0.,-1.,0.));
#525=DIRECTION('',(0.,-1.,0.));
#526=DIRECTION('',(0.,0.,-1.));
#527=DIRECTION('',(0.,-1.,0.));
#528=DIRECTION('',(0.,0.,-1.));
#529=DIRECTION('center_axis',(0.,0.,-1.));
#530=DIRECTION('ref_axis',(1.,-8.88178419700127E-16,0.));
#531=DIRECTION('center_axis',(0.,0.,-1.));
#532=DIRECTION('ref_axis',(1.,-8.88178419700127E-16,0.));
#533=DIRECTION('center_axis',(0.,0.,-1.));
#534=DIRECTION('ref_axis',(1.,-8.88178419700127E-16,0.));
#535=DIRECTION('center_axis',(0.,0.,1.));
#536=DIRECTION('ref_axis',(-1.,0.,0.));
#537=DIRECTION('',(-1.,0.,0.));
#538=DIRECTION('center_axis',(0.,-1.,0.));
#539=DIRECTION('ref_axis',(1.,0.,0.));
#540=DIRECTION('',(1.,0.,0.));
#541=DIRECTION('',(0.,0.,1.));
#542=DIRECTION('',(1.,0.,0.));
#543=DIRECTION('',(0.,0.,1.));
#544=DIRECTION('',(-1.,0.,0.));
#545=DIRECTION('',(0.,0.,-1.));
#546=DIRECTION('',(-1.,0.,0.));
#547=DIRECTION('',(0.,0.,1.));
#548=DIRECTION('',(-1.,0.,0.));
#549=DIRECTION('',(0.,0.,1.));
#550=DIRECTION('',(1.,0.,0.));
#551=DIRECTION('center_axis',(0.,0.,-1.));
#552=DIRECTION('ref_axis',(-1.,0.,0.));
#553=DIRECTION('center_axis',(0.,0.,-1.));
#554=DIRECTION('ref_axis',(-1.,0.,0.));
#555=DIRECTION('center_axis',(0.,0.,-1.));
#556=DIRECTION('ref_axis',(-1.,0.,0.));
#557=DIRECTION('center_axis',(0.,0.,1.));
#558=DIRECTION('ref_axis',(-1.,0.,0.));
#559=DIRECTION('center_axis',(0.,0.,-1.));
#560=DIRECTION('ref_axis',(-1.,0.,0.));
#561=DIRECTION('center_axis',(0.,0.,-1.));
#562=DIRECTION('ref_axis',(-1.,0.,0.));
#563=DIRECTION('',(0.,0.,-1.));
#564=DIRECTION('center_axis',(0.,0.,1.));
#565=DIRECTION('ref_axis',(-1.,0.,0.));
#566=DIRECTION('center_axis',(0.,0.,-1.));
#567=DIRECTION('ref_axis',(0.,1.,0.));
#568=DIRECTION('center_axis',(0.,0.,-1.));
#569=DIRECTION('ref_axis',(0.,1.,0.));
#570=DIRECTION('',(0.,0.,-1.));
#571=DIRECTION('center_axis',(0.,0.,-1.));
#572=DIRECTION('ref_axis',(0.,1.,0.));
#573=DIRECTION('',(0.,0.,-1.));
#574=DIRECTION('center_axis',(-1.,0.,0.));
#575=DIRECTION('ref_axis',(0.,1.,0.));
#576=DIRECTION('',(0.,1.,0.));
#577=DIRECTION('',(0.,1.,0.));
#578=DIRECTION('center_axis',(0.,1.,0.));
#579=DIRECTION('ref_axis',(1.,0.,0.));
#580=DIRECTION('',(1.,0.,0.));
#581=DIRECTION('',(1.,0.,0.));
#582=DIRECTION('',(0.,0.,-1.));
#583=DIRECTION('center_axis',(0.,0.,1.));
#584=DIRECTION('ref_axis',(-1.,0.,0.));
#585=DIRECTION('',(0.,-1.,0.));
#586=DIRECTION('center_axis',(0.,0.,1.));
#587=DIRECTION('ref_axis',(1.,0.,0.));
#588=DIRECTION('',(0.,1.,0.));
#589=DIRECTION('',(-1.,0.,0.));
#590=DIRECTION('',(0.,-1.,0.));
#591=DIRECTION('center_axis',(1.,0.,0.));
#592=DIRECTION('ref_axis',(0.,1.,0.));
#593=DIRECTION('',(0.,1.,0.));
#594=DIRECTION('',(0.,0.,1.));
#595=DIRECTION('center_axis',(0.,1.,0.));
#596=DIRECTION('ref_axis',(-1.,0.,0.));
#597=DIRECTION('',(-1.,0.,0.));
#598=DIRECTION('',(0.,0.,1.));
#599=DIRECTION('center_axis',(-1.,0.,0.));
#600=DIRECTION('ref_axis',(0.,-1.,0.));
#601=DIRECTION('',(0.,-1.,0.));
#602=DIRECTION('center_axis',(0.,0.,1.));
#603=DIRECTION('ref_axis',(1.,0.,0.));
#604=CARTESIAN_POINT('',(0.,0.,0.));
#605=CARTESIAN_POINT('Origin',(15.,105.,50.));
#606=CARTESIAN_POINT('',(22.,105.,50.));
#607=CARTESIAN_POINT('Origin',(15.,105.,50.));
#608=CARTESIAN_POINT('',(22.,105.,41.4));
#609=CARTESIAN_POINT('',(22.,105.,50.));
#610=CARTESIAN_POINT('Origin',(15.,105.,41.4));
#611=CARTESIAN_POINT('Origin',(15.,105.,41.4));
#612=CARTESIAN_POINT('',(20.,105.,41.4));
#613=CARTESIAN_POINT('Origin',(15.,105.,41.4));
#614=CARTESIAN_POINT('Origin',(105.,105.,50.));
#615=CARTESIAN_POINT('',(112.,105.,50.));
#616=CARTESIAN_POINT('Origin',(105.,105.,50.));
#617=CARTESIAN_POINT('',(112.,105.,41.4));
#618=CARTESIAN_POINT('',(112.,105.,50.));
#619=CARTESIAN_POINT('Origin',(105.,105.,41.4));
#620=CARTESIAN_POINT('Origin',(105.,105.,41.4));
#621=CARTESIAN_POINT('',(110.,105.,41.4));
#622=CARTESIAN_POINT('Origin',(105.,105.,41.4));
#623=CARTESIAN_POINT('Origin',(15.,105.,50.));
#624=CARTESIAN_POINT('',(20.,105.,0.));
#625=CARTESIAN_POINT('',(20.,105.,50.));
#626=CARTESIAN_POINT('Origin',(15.,105.,0.));
#627=CARTESIAN_POINT('Origin',(105.,105.,50.));
#628=CARTESIAN_POINT('',(110.,105.,0.));
#629=CARTESIAN_POINT('',(110.,105.,50.));
#630=CARTESIAN_POINT('Origin',(105.,105.,0.));
#631=CARTESIAN_POINT('Origin',(10.,0.,50.));
#632=CARTESIAN_POINT('',(10.,0.,50.));
#633=CARTESIAN_POINT('',(10.,25.,50.));
#634=CARTESIAN_POINT('',(10.,30.,50.));
#635=CARTESIAN_POINT('',(10.,0.,45.));
#636=CARTESIAN_POINT('',(10.,0.,25.));
#637=CARTESIAN_POINT('',(10.,25.,45.));
#638=CARTESIAN_POINT('',(10.,25.,45.));
#639=CARTESIAN_POINT('',(10.,25.,50.));
#640=CARTESIAN_POINT('Origin',(20.,25.,50.));
#641=CARTESIAN_POINT('',(20.,25.,50.));
#642=CARTESIAN_POINT('',(20.,0.,50.));
#643=CARTESIAN_POINT('',(20.,42.5,50.));
#644=CARTESIAN_POINT('',(20.,25.,45.));
#645=CARTESIAN_POINT('',(20.,25.,50.));
#646=CARTESIAN_POINT('',(20.,0.,45.));
#647=CARTESIAN_POINT('',(20.,0.,45.));
#648=CARTESIAN_POINT('',(20.,0.,25.));
#649=CARTESIAN_POINT('Origin',(15.,25.,50.));
#650=CARTESIAN_POINT('Origin',(15.,25.,50.));
#651=CARTESIAN_POINT('Origin',(15.,25.,45.));
#652=CARTESIAN_POINT('Origin',(15.,15.,45.));
#653=CARTESIAN_POINT('',(7.5,0.,45.));
#654=CARTESIAN_POINT('Origin',(0.,0.,0.));
#655=CARTESIAN_POINT('',(0.,0.,50.));
#656=CARTESIAN_POINT('',(0.,0.,50.));
#657=CARTESIAN_POINT('',(0.,0.,0.));
#658=CARTESIAN_POINT('',(0.,0.,0.));
#659=CARTESIAN_POINT('',(120.,0.,0.));
#660=CARTESIAN_POINT('',(0.,0.,0.));
#661=CARTESIAN_POINT('',(120.,0.,30.));
#662=CARTESIAN_POINT('',(120.,0.,0.));
#663=CARTESIAN_POINT('',(95.,-2.44929359829471E-15,30.));
#664=CARTESIAN_POINT('',(37.5,0.,30.));
#665=CARTESIAN_POINT('',(95.,-2.44929359829471E-15,20.));
#666=CARTESIAN_POINT('',(95.,0.,30.));
#667=CARTESIAN_POINT('',(55.,0.,20.));
#668=CARTESIAN_POINT('',(37.5,0.,20.));
#669=CARTESIAN_POINT('',(55.,0.,30.));
#670=CARTESIAN_POINT('',(55.,0.,30.));
#671=CARTESIAN_POINT('',(30.,0.,30.));
#672=CARTESIAN_POINT('',(37.5,0.,30.));
#673=CARTESIAN_POINT('',(30.,0.,50.));
#674=CARTESIAN_POINT('',(30.,0.,25.));
#675=CARTESIAN_POINT('',(0.,0.,50.));
#676=CARTESIAN_POINT('Origin',(75.,0.,30.));
#677=CARTESIAN_POINT('Origin',(75.,0.,30.));
#678=CARTESIAN_POINT('Origin',(75.,0.,20.));
#679=CARTESIAN_POINT('Origin',(75.,10.,20.));
#680=CARTESIAN_POINT('Origin',(95.,55.,30.));
#681=CARTESIAN_POINT('',(110.,55.,30.));
#682=CARTESIAN_POINT('Origin',(95.,55.,30.));
#683=CARTESIAN_POINT('',(110.,55.,0.));
#684=CARTESIAN_POINT('',(110.,55.,30.));
#685=CARTESIAN_POINT('Origin',(95.,55.,0.));
#686=CARTESIAN_POINT('Origin',(55.,65.,50.));
#687=CARTESIAN_POINT('',(30.,65.,50.));
#688=CARTESIAN_POINT('',(55.,90.,50.));
#689=CARTESIAN_POINT('Origin',(55.,65.,50.));
#690=CARTESIAN_POINT('',(30.,65.,30.));
#691=CARTESIAN_POINT('',(30.,65.,50.));
#692=CARTESIAN_POINT('',(55.,90.,30.));
#693=CARTESIAN_POINT('Origin',(55.,65.,30.));
#694=CARTESIAN_POINT('',(55.,90.,50.));
#695=CARTESIAN_POINT('Origin',(30.,0.,50.));
#696=CARTESIAN_POINT('',(30.,30.,50.));
#697=CARTESIAN_POINT('',(30.,0.,30.));
#698=CARTESIAN_POINT('Origin',(55.,90.,50.));
#699=CARTESIAN_POINT('',(120.,90.,50.));
#700=CARTESIAN_POINT('',(57.5,90.,50.));
#701=CARTESIAN_POINT('',(120.,90.,30.));
#702=CARTESIAN_POINT('',(55.,90.,30.));
#703=CARTESIAN_POINT('',(120.,90.,25.));
#704=CARTESIAN_POINT('Origin',(75.,45.,30.));
#705=CARTESIAN_POINT('',(120.,22.5,30.));
#706=CARTESIAN_POINT('Origin',(60.,60.,50.));
#707=CARTESIAN_POINT('',(120.,120.,50.));
#708=CARTESIAN_POINT('',(120.,0.,50.));
#709=CARTESIAN_POINT('',(0.,120.,50.));
#710=CARTESIAN_POINT('',(120.,120.,50.));
#711=CARTESIAN_POINT('',(0.,120.,50.));
#712=CARTESIAN_POINT('Origin',(120.,0.,0.));
#713=CARTESIAN_POINT('',(120.,120.,0.));
#714=CARTESIAN_POINT('',(120.,0.,0.));
#715=CARTESIAN_POINT('',(120.,120.,0.));
#716=CARTESIAN_POINT('Origin',(120.,120.,0.));
#717=CARTESIAN_POINT('',(0.,120.,0.));
#718=CARTESIAN_POINT('',(120.,120.,0.));
#719=CARTESIAN_POINT('',(0.,120.,0.));
#720=CARTESIAN_POINT('Origin',(0.,120.,0.));
#721=CARTESIAN_POINT('',(0.,120.,0.));
#722=CARTESIAN_POINT('Origin',(60.,60.,0.));
#723=UNCERTAINTY_MEASURE_WITH_UNIT(LENGTH_MEASURE(0.01),#727,
'DISTANCE_ACCURACY_VALUE',
'Maximum model space distance between geometric entities at asserted c
onnectivities');
#724=UNCERTAINTY_MEASURE_WITH_UNIT(LENGTH_MEASURE(0.01),#727,
'DISTANCE_ACCURACY_VALUE',
'Maximum model space distance between geometric entities at asserted c
onnectivities');
#725=(
GEOMETRIC_REPRESENTATION_CONTEXT(3)
GLOBAL_UNCERTAINTY_ASSIGNED_CONTEXT((#723))
GLOBAL_UNIT_ASSIGNED_CONTEXT((#727,#729,#730))
REPRESENTATION_CONTEXT('','3D')
);
#726=(
GEOMETRIC_REPRESENTATION_CONTEXT(3)
GLOBAL_UNCERTAINTY_ASSIGNED_CONTEXT((#724))
GLOBAL_UNIT_ASSIGNED_CONTEXT((#727,#729,#730))
REPRESENTATION_CONTEXT('','3D')
);
#727=(
LENGTH_UNIT()
NAMED_UNIT(*)
SI_UNIT(.MILLI.,.METRE.)
);
#728=(
LENGTH_UNIT()
NAMED_UNIT(*)
SI_UNIT($,.METRE.)
);
#729=(
NAMED_UNIT(*)
PLANE_ANGLE_UNIT()
SI_UNIT($,.RADIAN.)
);
#730=(
NAMED_UNIT(*)
SI_UNIT($,.STERADIAN.)
SOLID_ANGLE_UNIT()
);
#731=SHAPE_DEFINITION_REPRESENTATION(#732,#733);
#732=PRODUCT_DEFINITION_SHAPE('',$,#735);
#733=SHAPE_REPRESENTATION('',(#443),#725);
#734=PRODUCT_DEFINITION_CONTEXT('part definition',#739,'design');
#735=PRODUCT_DEFINITION('\X2\691C8A3C752830B530F330D730EB\X0\4tam',
'\X2\691C8A3C752830B530F330D730EB\X0\4tam v0',#736,#734);
#736=PRODUCT_DEFINITION_FORMATION('',$,#741);
#737=PRODUCT_RELATED_PRODUCT_CATEGORY('\X2\691C8A3C752830B530F330D730EB\X0\4
tam v0','\X2\691C8A3C752830B530F330D730EB\X0\4tam v0',(#741));
#738=APPLICATION_PROTOCOL_DEFINITION('international standard',
'automotive_design',2009,#739);
#739=APPLICATION_CONTEXT(
'Core Data for Automotive Mechanical Design Process');
#740=PRODUCT_CONTEXT('part definition',#739,'mechanical');
#741=PRODUCT('\X2\691C8A3C752830B530F330D730EB\X0\4tam',
'\X2\691C8A3C752830B530F330D730EB\X0\4tam v0',$,(#740));
#742=PRESENTATION_STYLE_ASSIGNMENT((#743));
#743=SURFACE_STYLE_USAGE(.BOTH.,#744);
#744=SURFACE_SIDE_STYLE('',(#745));
#745=SURFACE_STYLE_FILL_AREA(#746);
#746=FILL_AREA_STYLE('\X2\92FC\X0\ - \X2\30B530C630F3\X0\',(#747));
#747=FILL_AREA_STYLE_COLOUR('\X2\92FC\X0\ - \X2\30B530C630F3\X0\',#748);
#748=COLOUR_RGB('\X2\92FC\X0\ - \X2\30B530C630F3\X0\',0.627450980392157,
0.627450980392157,0.627450980392157);
ENDSEC;
END-ISO-10303-21;
