ISO-10303-21;
HEADER;
/* Generated by software containing ST-Developer
 * from STEP Tools, Inc. (www.steptools.com) 
 */

FILE_DESCRIPTION(
/* description */ (''),
/* implementation_level */ '2;1');

FILE_NAME(
/* name */ '',
/* time_stamp */ '2024-05-27T15:28:23+09:00',
/* author */ (''),
/* organization */ (''),
/* preprocessor_version */ 'ST-DEVELOPER v20',
/* originating_system */ 'Autodesk Translation Framework v12.20.1.177',

/* authorisation */ '');

FILE_SCHEMA (('AUTOMOTIVE_DESIGN { 1 0 10303 214 3 1 1 }'));
ENDSEC;

DATA;
#10=MECHANICAL_DESIGN_GEOMETRIC_PRESENTATION_REPRESENTATION('',(#13),#654);
#11=SHAPE_REPRESENTATION_RELATIONSHIP('SRR','None',#661,#12);
#12=ADVANCED_BREP_SHAPE_REPRESENTATION('',(#14),#653);
#13=STYLED_ITEM('',(#670),#14);
#14=MANIFOLD_SOLID_BREP('\X2\30DC30C730A3\X0\1',#374);
#15=FACE_BOUND('',#73,.T.);
#16=FACE_BOUND('',#76,.T.);
#17=FACE_BOUND('',#79,.T.);
#18=FACE_BOUND('',#82,.T.);
#19=FACE_BOUND('',#84,.T.);
#20=FACE_BOUND('',#85,.T.);
#21=FACE_BOUND('',#86,.T.);
#22=FACE_BOUND('',#87,.T.);
#23=FACE_BOUND('',#88,.T.);
#24=FACE_BOUND('',#89,.T.);
#25=FACE_BOUND('',#90,.T.);
#26=FACE_BOUND('',#102,.T.);
#27=FACE_BOUND('',#103,.T.);
#28=FACE_BOUND('',#104,.T.);
#29=FACE_BOUND('',#105,.T.);
#30=PLANE('',#403);
#31=PLANE('',#407);
#32=PLANE('',#411);
#33=PLANE('',#415);
#34=PLANE('',#416);
#35=PLANE('',#422);
#36=PLANE('',#425);
#37=PLANE('',#428);
#38=PLANE('',#429);
#39=PLANE('',#430);
#40=PLANE('',#431);
#41=PLANE('',#432);
#42=PLANE('',#433);
#43=FACE_OUTER_BOUND('',#67,.T.);
#44=FACE_OUTER_BOUND('',#68,.T.);
#45=FACE_OUTER_BOUND('',#69,.T.);
#46=FACE_OUTER_BOUND('',#70,.T.);
#47=FACE_OUTER_BOUND('',#71,.T.);
#48=FACE_OUTER_BOUND('',#72,.T.);
#49=FACE_OUTER_BOUND('',#74,.T.);
#50=FACE_OUTER_BOUND('',#75,.T.);
#51=FACE_OUTER_BOUND('',#77,.T.);
#52=FACE_OUTER_BOUND('',#78,.T.);
#53=FACE_OUTER_BOUND('',#80,.T.);
#54=FACE_OUTER_BOUND('',#81,.T.);
#55=FACE_OUTER_BOUND('',#83,.T.);
#56=FACE_OUTER_BOUND('',#91,.T.);
#57=FACE_OUTER_BOUND('',#92,.T.);
#58=FACE_OUTER_BOUND('',#93,.T.);
#59=FACE_OUTER_BOUND('',#94,.T.);
#60=FACE_OUTER_BOUND('',#95,.T.);
#61=FACE_OUTER_BOUND('',#96,.T.);
#62=FACE_OUTER_BOUND('',#97,.T.);
#63=FACE_OUTER_BOUND('',#98,.T.);
#64=FACE_OUTER_BOUND('',#99,.T.);
#65=FACE_OUTER_BOUND('',#100,.T.);
#66=FACE_OUTER_BOUND('',#101,.T.);
#67=EDGE_LOOP('',(#249,#250,#251,#252));
#68=EDGE_LOOP('',(#253,#254,#255,#256));
#69=EDGE_LOOP('',(#257,#258,#259,#260));
#70=EDGE_LOOP('',(#261,#262,#263,#264));
#71=EDGE_LOOP('',(#265,#266,#267,#268));
#72=EDGE_LOOP('',(#269));
#73=EDGE_LOOP('',(#270));
#74=EDGE_LOOP('',(#271,#272,#273,#274));
#75=EDGE_LOOP('',(#275));
#76=EDGE_LOOP('',(#276));
#77=EDGE_LOOP('',(#277,#278,#279,#280));
#78=EDGE_LOOP('',(#281));
#79=EDGE_LOOP('',(#282));
#80=EDGE_LOOP('',(#283,#284,#285,#286));
#81=EDGE_LOOP('',(#287));
#82=EDGE_LOOP('',(#288));
#83=EDGE_LOOP('',(#289,#290,#291,#292));
#84=EDGE_LOOP('',(#293));
#85=EDGE_LOOP('',(#294));
#86=EDGE_LOOP('',(#295));
#87=EDGE_LOOP('',(#296));
#88=EDGE_LOOP('',(#297));
#89=EDGE_LOOP('',(#298));
#90=EDGE_LOOP('',(#299));
#91=EDGE_LOOP('',(#300,#301,#302,#303));
#92=EDGE_LOOP('',(#304));
#93=EDGE_LOOP('',(#305,#306,#307,#308));
#94=EDGE_LOOP('',(#309));
#95=EDGE_LOOP('',(#310,#311,#312,#313));
#96=EDGE_LOOP('',(#314));
#97=EDGE_LOOP('',(#315,#316,#317,#318));
#98=EDGE_LOOP('',(#319,#320,#321,#322));
#99=EDGE_LOOP('',(#323,#324,#325,#326));
#100=EDGE_LOOP('',(#327,#328,#329,#330));
#101=EDGE_LOOP('',(#331,#332,#333,#334));
#102=EDGE_LOOP('',(#335));
#103=EDGE_LOOP('',(#336));
#104=EDGE_LOOP('',(#337));
#105=EDGE_LOOP('',(#338));
#106=LINE('',#556,#129);
#107=LINE('',#562,#130);
#108=LINE('',#568,#131);
#109=LINE('',#574,#132);
#110=LINE('',#580,#133);
#111=LINE('',#587,#134);
#112=LINE('',#594,#135);
#113=LINE('',#601,#136);
#114=LINE('',#607,#137);
#115=LINE('',#609,#138);
#116=LINE('',#611,#139);
#117=LINE('',#612,#140);
#118=LINE('',#621,#141);
#119=LINE('',#626,#142);
#120=LINE('',#631,#143);
#121=LINE('',#637,#144);
#122=LINE('',#638,#145);
#123=LINE('',#639,#146);
#124=LINE('',#642,#147);
#125=LINE('',#643,#148);
#126=LINE('',#646,#149);
#127=LINE('',#647,#150);
#128=LINE('',#649,#151);
#129=VECTOR('',#440,3.29999999999998);
#130=VECTOR('',#447,3.3);
#131=VECTOR('',#454,3.3);
#132=VECTOR('',#461,3.29999999999998);
#133=VECTOR('',#468,5.50000000000001);
#134=VECTOR('',#477,5.50000000000001);
#135=VECTOR('',#486,5.50000000000001);
#136=VECTOR('',#495,5.50000000000001);
#137=VECTOR('',#502,10.);
#138=VECTOR('',#503,10.);
#139=VECTOR('',#504,10.);
#140=VECTOR('',#505,10.);
#141=VECTOR('',#514,2.5);
#142=VECTOR('',#521,2.5);
#143=VECTOR('',#528,60.);
#144=VECTOR('',#535,10.);
#145=VECTOR('',#536,10.);
#146=VECTOR('',#537,10.);
#147=VECTOR('',#540,10.);
#148=VECTOR('',#541,10.);
#149=VECTOR('',#544,10.);
#150=VECTOR('',#545,10.);
#151=VECTOR('',#548,10.);
#152=CIRCLE('',#389,3.29999999999998);
#153=CIRCLE('',#390,3.29999999999998);
#154=CIRCLE('',#392,3.3);
#155=CIRCLE('',#393,3.3);
#156=CIRCLE('',#395,3.3);
#157=CIRCLE('',#396,3.3);
#158=CIRCLE('',#398,3.29999999999998);
#159=CIRCLE('',#399,3.29999999999998);
#160=CIRCLE('',#401,5.50000000000001);
#161=CIRCLE('',#402,5.50000000000001);
#162=CIRCLE('',#405,5.50000000000001);
#163=CIRCLE('',#406,5.50000000000001);
#164=CIRCLE('',#409,5.50000000000001);
#165=CIRCLE('',#410,5.50000000000001);
#166=CIRCLE('',#413,5.50000000000001);
#167=CIRCLE('',#414,5.50000000000001);
#168=CIRCLE('',#417,2.5);
#169=CIRCLE('',#418,2.5);
#170=CIRCLE('',#419,60.);
#171=CIRCLE('',#421,2.5);
#172=CIRCLE('',#424,2.5);
#173=CIRCLE('',#427,60.);
#174=VERTEX_POINT('',#553);
#175=VERTEX_POINT('',#555);
#176=VERTEX_POINT('',#559);
#177=VERTEX_POINT('',#561);
#178=VERTEX_POINT('',#565);
#179=VERTEX_POINT('',#567);
#180=VERTEX_POINT('',#571);
#181=VERTEX_POINT('',#573);
#182=VERTEX_POINT('',#577);
#183=VERTEX_POINT('',#579);
#184=VERTEX_POINT('',#584);
#185=VERTEX_POINT('',#586);
#186=VERTEX_POINT('',#591);
#187=VERTEX_POINT('',#593);
#188=VERTEX_POINT('',#598);
#189=VERTEX_POINT('',#600);
#190=VERTEX_POINT('',#605);
#191=VERTEX_POINT('',#606);
#192=VERTEX_POINT('',#608);
#193=VERTEX_POINT('',#610);
#194=VERTEX_POINT('',#613);
#195=VERTEX_POINT('',#615);
#196=VERTEX_POINT('',#617);
#197=VERTEX_POINT('',#620);
#198=VERTEX_POINT('',#625);
#199=VERTEX_POINT('',#630);
#200=VERTEX_POINT('',#635);
#201=VERTEX_POINT('',#636);
#202=VERTEX_POINT('',#641);
#203=VERTEX_POINT('',#645);
#204=EDGE_CURVE('',#174,#174,#152,.T.);
#205=EDGE_CURVE('',#174,#175,#106,.T.);
#206=EDGE_CURVE('',#175,#175,#153,.T.);
#207=EDGE_CURVE('',#176,#176,#154,.T.);
#208=EDGE_CURVE('',#176,#177,#107,.T.);
#209=EDGE_CURVE('',#177,#177,#155,.T.);
#210=EDGE_CURVE('',#178,#178,#156,.T.);
#211=EDGE_CURVE('',#178,#179,#108,.T.);
#212=EDGE_CURVE('',#179,#179,#157,.T.);
#213=EDGE_CURVE('',#180,#180,#158,.T.);
#214=EDGE_CURVE('',#180,#181,#109,.T.);
#215=EDGE_CURVE('',#181,#181,#159,.T.);
#216=EDGE_CURVE('',#182,#182,#160,.T.);
#217=EDGE_CURVE('',#182,#183,#110,.T.);
#218=EDGE_CURVE('',#183,#183,#161,.T.);
#219=EDGE_CURVE('',#184,#184,#162,.T.);
#220=EDGE_CURVE('',#184,#185,#111,.T.);
#221=EDGE_CURVE('',#185,#185,#163,.T.);
#222=EDGE_CURVE('',#186,#186,#164,.T.);
#223=EDGE_CURVE('',#186,#187,#112,.T.);
#224=EDGE_CURVE('',#187,#187,#165,.T.);
#225=EDGE_CURVE('',#188,#188,#166,.T.);
#226=EDGE_CURVE('',#188,#189,#113,.T.);
#227=EDGE_CURVE('',#189,#189,#167,.T.);
#228=EDGE_CURVE('',#190,#191,#114,.T.);
#229=EDGE_CURVE('',#191,#192,#115,.T.);
#230=EDGE_CURVE('',#192,#193,#116,.T.);
#231=EDGE_CURVE('',#193,#190,#117,.T.);
#232=EDGE_CURVE('',#194,#194,#168,.T.);
#233=EDGE_CURVE('',#195,#195,#169,.T.);
#234=EDGE_CURVE('',#196,#196,#170,.T.);
#235=EDGE_CURVE('',#194,#197,#118,.T.);
#236=EDGE_CURVE('',#197,#197,#171,.T.);
#237=EDGE_CURVE('',#195,#198,#119,.T.);
#238=EDGE_CURVE('',#198,#198,#172,.T.);
#239=EDGE_CURVE('',#196,#199,#120,.T.);
#240=EDGE_CURVE('',#199,#199,#173,.T.);
#241=EDGE_CURVE('',#200,#201,#121,.T.);
#242=EDGE_CURVE('',#201,#190,#122,.T.);
#243=EDGE_CURVE('',#200,#193,#123,.T.);
#244=EDGE_CURVE('',#202,#200,#124,.T.);
#245=EDGE_CURVE('',#202,#192,#125,.T.);
#246=EDGE_CURVE('',#203,#202,#126,.T.);
#247=EDGE_CURVE('',#203,#191,#127,.T.);
#248=EDGE_CURVE('',#201,#203,#128,.T.);
#249=ORIENTED_EDGE('',*,*,#204,.T.);
#250=ORIENTED_EDGE('',*,*,#205,.T.);
#251=ORIENTED_EDGE('',*,*,#206,.F.);
#252=ORIENTED_EDGE('',*,*,#205,.F.);
#253=ORIENTED_EDGE('',*,*,#207,.T.);
#254=ORIENTED_EDGE('',*,*,#208,.T.);
#255=ORIENTED_EDGE('',*,*,#209,.F.);
#256=ORIENTED_EDGE('',*,*,#208,.F.);
#257=ORIENTED_EDGE('',*,*,#210,.T.);
#258=ORIENTED_EDGE('',*,*,#211,.T.);
#259=ORIENTED_EDGE('',*,*,#212,.F.);
#260=ORIENTED_EDGE('',*,*,#211,.F.);
#261=ORIENTED_EDGE('',*,*,#213,.T.);
#262=ORIENTED_EDGE('',*,*,#214,.T.);
#263=ORIENTED_EDGE('',*,*,#215,.F.);
#264=ORIENTED_EDGE('',*,*,#214,.F.);
#265=ORIENTED_EDGE('',*,*,#216,.F.);
#266=ORIENTED_EDGE('',*,*,#217,.T.);
#267=ORIENTED_EDGE('',*,*,#218,.T.);
#268=ORIENTED_EDGE('',*,*,#217,.F.);
#269=ORIENTED_EDGE('',*,*,#218,.F.);
#270=ORIENTED_EDGE('',*,*,#213,.F.);
#271=ORIENTED_EDGE('',*,*,#219,.F.);
#272=ORIENTED_EDGE('',*,*,#220,.T.);
#273=ORIENTED_EDGE('',*,*,#221,.T.);
#274=ORIENTED_EDGE('',*,*,#220,.F.);
#275=ORIENTED_EDGE('',*,*,#221,.F.);
#276=ORIENTED_EDGE('',*,*,#204,.F.);
#277=ORIENTED_EDGE('',*,*,#222,.F.);
#278=ORIENTED_EDGE('',*,*,#223,.T.);
#279=ORIENTED_EDGE('',*,*,#224,.T.);
#280=ORIENTED_EDGE('',*,*,#223,.F.);
#281=ORIENTED_EDGE('',*,*,#224,.F.);
#282=ORIENTED_EDGE('',*,*,#207,.F.);
#283=ORIENTED_EDGE('',*,*,#225,.F.);
#284=ORIENTED_EDGE('',*,*,#226,.T.);
#285=ORIENTED_EDGE('',*,*,#227,.T.);
#286=ORIENTED_EDGE('',*,*,#226,.F.);
#287=ORIENTED_EDGE('',*,*,#227,.F.);
#288=ORIENTED_EDGE('',*,*,#210,.F.);
#289=ORIENTED_EDGE('',*,*,#228,.T.);
#290=ORIENTED_EDGE('',*,*,#229,.T.);
#291=ORIENTED_EDGE('',*,*,#230,.T.);
#292=ORIENTED_EDGE('',*,*,#231,.T.);
#293=ORIENTED_EDGE('',*,*,#216,.T.);
#294=ORIENTED_EDGE('',*,*,#219,.T.);
#295=ORIENTED_EDGE('',*,*,#222,.T.);
#296=ORIENTED_EDGE('',*,*,#225,.T.);
#297=ORIENTED_EDGE('',*,*,#232,.T.);
#298=ORIENTED_EDGE('',*,*,#233,.T.);
#299=ORIENTED_EDGE('',*,*,#234,.T.);
#300=ORIENTED_EDGE('',*,*,#232,.F.);
#301=ORIENTED_EDGE('',*,*,#235,.T.);
#302=ORIENTED_EDGE('',*,*,#236,.T.);
#303=ORIENTED_EDGE('',*,*,#235,.F.);
#304=ORIENTED_EDGE('',*,*,#236,.F.);
#305=ORIENTED_EDGE('',*,*,#233,.F.);
#306=ORIENTED_EDGE('',*,*,#237,.T.);
#307=ORIENTED_EDGE('',*,*,#238,.T.);
#308=ORIENTED_EDGE('',*,*,#237,.F.);
#309=ORIENTED_EDGE('',*,*,#238,.F.);
#310=ORIENTED_EDGE('',*,*,#234,.F.);
#311=ORIENTED_EDGE('',*,*,#239,.T.);
#312=ORIENTED_EDGE('',*,*,#240,.T.);
#313=ORIENTED_EDGE('',*,*,#239,.F.);
#314=ORIENTED_EDGE('',*,*,#240,.F.);
#315=ORIENTED_EDGE('',*,*,#241,.T.);
#316=ORIENTED_EDGE('',*,*,#242,.T.);
#317=ORIENTED_EDGE('',*,*,#231,.F.);
#318=ORIENTED_EDGE('',*,*,#243,.F.);
#319=ORIENTED_EDGE('',*,*,#244,.T.);
#320=ORIENTED_EDGE('',*,*,#243,.T.);
#321=ORIENTED_EDGE('',*,*,#230,.F.);
#322=ORIENTED_EDGE('',*,*,#245,.F.);
#323=ORIENTED_EDGE('',*,*,#246,.T.);
#324=ORIENTED_EDGE('',*,*,#245,.T.);
#325=ORIENTED_EDGE('',*,*,#229,.F.);
#326=ORIENTED_EDGE('',*,*,#247,.F.);
#327=ORIENTED_EDGE('',*,*,#248,.T.);
#328=ORIENTED_EDGE('',*,*,#247,.T.);
#329=ORIENTED_EDGE('',*,*,#228,.F.);
#330=ORIENTED_EDGE('',*,*,#242,.F.);
#331=ORIENTED_EDGE('',*,*,#248,.F.);
#332=ORIENTED_EDGE('',*,*,#241,.F.);
#333=ORIENTED_EDGE('',*,*,#244,.F.);
#334=ORIENTED_EDGE('',*,*,#246,.F.);
#335=ORIENTED_EDGE('',*,*,#206,.T.);
#336=ORIENTED_EDGE('',*,*,#209,.T.);
#337=ORIENTED_EDGE('',*,*,#212,.T.);
#338=ORIENTED_EDGE('',*,*,#215,.T.);
#339=CYLINDRICAL_SURFACE('',#388,3.29999999999998);
#340=CYLINDRICAL_SURFACE('',#391,3.3);
#341=CYLINDRICAL_SURFACE('',#394,3.3);
#342=CYLINDRICAL_SURFACE('',#397,3.29999999999998);
#343=CYLINDRICAL_SURFACE('',#400,5.50000000000001);
#344=CYLINDRICAL_SURFACE('',#404,5.50000000000001);
#345=CYLINDRICAL_SURFACE('',#408,5.50000000000001);
#346=CYLINDRICAL_SURFACE('',#412,5.50000000000001);
#347=CYLINDRICAL_SURFACE('',#420,2.5);
#348=CYLINDRICAL_SURFACE('',#423,2.5);
#349=CYLINDRICAL_SURFACE('',#426,60.);
#350=ADVANCED_FACE('',(#43),#339,.F.);
#351=ADVANCED_FACE('',(#44),#340,.F.);
#352=ADVANCED_FACE('',(#45),#341,.F.);
#353=ADVANCED_FACE('',(#46),#342,.F.);
#354=ADVANCED_FACE('',(#47),#343,.F.);
#355=ADVANCED_FACE('',(#48,#15),#30,.T.);
#356=ADVANCED_FACE('',(#49),#344,.F.);
#357=ADVANCED_FACE('',(#50,#16),#31,.T.);
#358=ADVANCED_FACE('',(#51),#345,.F.);
#359=ADVANCED_FACE('',(#52,#17),#32,.T.);
#360=ADVANCED_FACE('',(#53),#346,.F.);
#361=ADVANCED_FACE('',(#54,#18),#33,.T.);
#362=ADVANCED_FACE('',(#55,#19,#20,#21,#22,#23,#24,#25),#34,.T.);
#363=ADVANCED_FACE('',(#56),#347,.F.);
#364=ADVANCED_FACE('',(#57),#35,.T.);
#365=ADVANCED_FACE('',(#58),#348,.F.);
#366=ADVANCED_FACE('',(#59),#36,.T.);
#367=ADVANCED_FACE('',(#60),#349,.F.);
#368=ADVANCED_FACE('',(#61),#37,.T.);
#369=ADVANCED_FACE('',(#62),#38,.T.);
#370=ADVANCED_FACE('',(#63),#39,.T.);
#371=ADVANCED_FACE('',(#64),#40,.T.);
#372=ADVANCED_FACE('',(#65),#41,.T.);
#373=ADVANCED_FACE('',(#66,#26,#27,#28,#29),#42,.F.);
#374=CLOSED_SHELL('',(#350,#351,#352,#353,#354,#355,#356,#357,#358,#359,
#360,#361,#362,#363,#364,#365,#366,#367,#368,#369,#370,#371,#372,#373));
#375=DERIVED_UNIT_ELEMENT(#377,1.);
#376=DERIVED_UNIT_ELEMENT(#656,-3.);
#377=(
MASS_UNIT()
NAMED_UNIT(*)
SI_UNIT(.KILO.,.GRAM.)
);
#378=DERIVED_UNIT((#375,#376));
#379=MEASURE_REPRESENTATION_ITEM('density measure',
POSITIVE_RATIO_MEASURE(7850.),#378);
#380=PROPERTY_DEFINITION_REPRESENTATION(#385,#382);
#381=PROPERTY_DEFINITION_REPRESENTATION(#386,#383);
#382=REPRESENTATION('material name',(#384),#653);
#383=REPRESENTATION('density',(#379),#653);
#384=DESCRIPTIVE_REPRESENTATION_ITEM('\X2\92FC\X0\','\X2\92FC\X0\');
#385=PROPERTY_DEFINITION('material property','material name',#663);
#386=PROPERTY_DEFINITION('material property','density of part',#663);
#387=AXIS2_PLACEMENT_3D('',#551,#434,#435);
#388=AXIS2_PLACEMENT_3D('',#552,#436,#437);
#389=AXIS2_PLACEMENT_3D('',#554,#438,#439);
#390=AXIS2_PLACEMENT_3D('',#557,#441,#442);
#391=AXIS2_PLACEMENT_3D('',#558,#443,#444);
#392=AXIS2_PLACEMENT_3D('',#560,#445,#446);
#393=AXIS2_PLACEMENT_3D('',#563,#448,#449);
#394=AXIS2_PLACEMENT_3D('',#564,#450,#451);
#395=AXIS2_PLACEMENT_3D('',#566,#452,#453);
#396=AXIS2_PLACEMENT_3D('',#569,#455,#456);
#397=AXIS2_PLACEMENT_3D('',#570,#457,#458);
#398=AXIS2_PLACEMENT_3D('',#572,#459,#460);
#399=AXIS2_PLACEMENT_3D('',#575,#462,#463);
#400=AXIS2_PLACEMENT_3D('',#576,#464,#465);
#401=AXIS2_PLACEMENT_3D('',#578,#466,#467);
#402=AXIS2_PLACEMENT_3D('',#581,#469,#470);
#403=AXIS2_PLACEMENT_3D('',#582,#471,#472);
#404=AXIS2_PLACEMENT_3D('',#583,#473,#474);
#405=AXIS2_PLACEMENT_3D('',#585,#475,#476);
#406=AXIS2_PLACEMENT_3D('',#588,#478,#479);
#407=AXIS2_PLACEMENT_3D('',#589,#480,#481);
#408=AXIS2_PLACEMENT_3D('',#590,#482,#483);
#409=AXIS2_PLACEMENT_3D('',#592,#484,#485);
#410=AXIS2_PLACEMENT_3D('',#595,#487,#488);
#411=AXIS2_PLACEMENT_3D('',#596,#489,#490);
#412=AXIS2_PLACEMENT_3D('',#597,#491,#492);
#413=AXIS2_PLACEMENT_3D('',#599,#493,#494);
#414=AXIS2_PLACEMENT_3D('',#602,#496,#497);
#415=AXIS2_PLACEMENT_3D('',#603,#498,#499);
#416=AXIS2_PLACEMENT_3D('',#604,#500,#501);
#417=AXIS2_PLACEMENT_3D('',#614,#506,#507);
#418=AXIS2_PLACEMENT_3D('',#616,#508,#509);
#419=AXIS2_PLACEMENT_3D('',#618,#510,#511);
#420=AXIS2_PLACEMENT_3D('',#619,#512,#513);
#421=AXIS2_PLACEMENT_3D('',#622,#515,#516);
#422=AXIS2_PLACEMENT_3D('',#623,#517,#518);
#423=AXIS2_PLACEMENT_3D('',#624,#519,#520);
#424=AXIS2_PLACEMENT_3D('',#627,#522,#523);
#425=AXIS2_PLACEMENT_3D('',#628,#524,#525);
#426=AXIS2_PLACEMENT_3D('',#629,#526,#527);
#427=AXIS2_PLACEMENT_3D('',#632,#529,#530);
#428=AXIS2_PLACEMENT_3D('',#633,#531,#532);
#429=AXIS2_PLACEMENT_3D('',#634,#533,#534);
#430=AXIS2_PLACEMENT_3D('',#640,#538,#539);
#431=AXIS2_PLACEMENT_3D('',#644,#542,#543);
#432=AXIS2_PLACEMENT_3D('',#648,#546,#547);
#433=AXIS2_PLACEMENT_3D('',#650,#549,#550);
#434=DIRECTION('axis',(0.,0.,1.));
#435=DIRECTION('refdir',(1.,0.,0.));
#436=DIRECTION('center_axis',(0.,0.,-1.));
#437=DIRECTION('ref_axis',(-1.,0.,0.));
#438=DIRECTION('center_axis',(0.,0.,1.));
#439=DIRECTION('ref_axis',(-1.,0.,0.));
#440=DIRECTION('',(0.,0.,-1.));
#441=DIRECTION('center_axis',(0.,0.,1.));
#442=DIRECTION('ref_axis',(-1.,0.,0.));
#443=DIRECTION('center_axis',(0.,0.,-1.));
#444=DIRECTION('ref_axis',(-1.,0.,0.));
#445=DIRECTION('center_axis',(0.,0.,1.));
#446=DIRECTION('ref_axis',(-1.,0.,0.));
#447=DIRECTION('',(0.,0.,-1.));
#448=DIRECTION('center_axis',(0.,0.,1.));
#449=DIRECTION('ref_axis',(-1.,0.,0.));
#450=DIRECTION('center_axis',(0.,0.,-1.));
#451=DIRECTION('ref_axis',(-1.,0.,0.));
#452=DIRECTION('center_axis',(0.,0.,1.));
#453=DIRECTION('ref_axis',(-1.,0.,0.));
#454=DIRECTION('',(0.,0.,-1.));
#455=DIRECTION('center_axis',(0.,0.,1.));
#456=DIRECTION('ref_axis',(-1.,0.,0.));
#457=DIRECTION('center_axis',(0.,0.,-1.));
#458=DIRECTION('ref_axis',(-1.,0.,0.));
#459=DIRECTION('center_axis',(0.,0.,1.));
#460=DIRECTION('ref_axis',(-1.,0.,0.));
#461=DIRECTION('',(0.,0.,-1.));
#462=DIRECTION('center_axis',(0.,0.,1.));
#463=DIRECTION('ref_axis',(-1.,0.,0.));
#464=DIRECTION('center_axis',(0.,0.,-1.));
#465=DIRECTION('ref_axis',(-1.,0.,0.));
#466=DIRECTION('center_axis',(0.,0.,-1.));
#467=DIRECTION('ref_axis',(-1.,0.,0.));
#468=DIRECTION('',(0.,0.,-1.));
#469=DIRECTION('center_axis',(0.,0.,-1.));
#470=DIRECTION('ref_axis',(-1.,0.,0.));
#471=DIRECTION('center_axis',(0.,0.,1.));
#472=DIRECTION('ref_axis',(-1.,0.,0.));
#473=DIRECTION('center_axis',(0.,0.,-1.));
#474=DIRECTION('ref_axis',(-1.,0.,0.));
#475=DIRECTION('center_axis',(0.,0.,-1.));
#476=DIRECTION('ref_axis',(-1.,0.,0.));
#477=DIRECTION('',(0.,0.,-1.));
#478=DIRECTION('center_axis',(0.,0.,-1.));
#479=DIRECTION('ref_axis',(-1.,0.,0.));
#480=DIRECTION('center_axis',(0.,0.,1.));
#481=DIRECTION('ref_axis',(-1.,0.,0.));
#482=DIRECTION('center_axis',(0.,0.,-1.));
#483=DIRECTION('ref_axis',(-1.,0.,0.));
#484=DIRECTION('center_axis',(0.,0.,-1.));
#485=DIRECTION('ref_axis',(-1.,0.,0.));
#486=DIRECTION('',(0.,0.,-1.));
#487=DIRECTION('center_axis',(0.,0.,-1.));
#488=DIRECTION('ref_axis',(-1.,0.,0.));
#489=DIRECTION('center_axis',(0.,0.,1.));
#490=DIRECTION('ref_axis',(-1.,0.,0.));
#491=DIRECTION('center_axis',(0.,0.,-1.));
#492=DIRECTION('ref_axis',(-1.,0.,0.));
#493=DIRECTION('center_axis',(0.,0.,-1.));
#494=DIRECTION('ref_axis',(-1.,0.,0.));
#495=DIRECTION('',(0.,0.,-1.));
#496=DIRECTION('center_axis',(0.,0.,-1.));
#497=DIRECTION('ref_axis',(-1.,0.,0.));
#498=DIRECTION('center_axis',(0.,0.,1.));
#499=DIRECTION('ref_axis',(-1.,0.,0.));
#500=DIRECTION('center_axis',(0.,0.,1.));
#501=DIRECTION('ref_axis',(1.,0.,0.));
#502=DIRECTION('',(0.,-1.,0.));
#503=DIRECTION('',(1.,0.,0.));
#504=DIRECTION('',(0.,1.,0.));
#505=DIRECTION('',(-1.,0.,0.));
#506=DIRECTION('center_axis',(0.,0.,-1.));
#507=DIRECTION('ref_axis',(-1.,0.,0.));
#508=DIRECTION('center_axis',(0.,0.,-1.));
#509=DIRECTION('ref_axis',(-1.,0.,0.));
#510=DIRECTION('center_axis',(0.,0.,-1.));
#511=DIRECTION('ref_axis',(-1.,0.,0.));
#512=DIRECTION('center_axis',(0.,0.,-1.));
#513=DIRECTION('ref_axis',(-1.,0.,0.));
#514=DIRECTION('',(0.,0.,-1.));
#515=DIRECTION('center_axis',(0.,0.,-1.));
#516=DIRECTION('ref_axis',(-1.,0.,0.));
#517=DIRECTION('center_axis',(0.,0.,1.));
#518=DIRECTION('ref_axis',(-1.,0.,0.));
#519=DIRECTION('center_axis',(0.,0.,-1.));
#520=DIRECTION('ref_axis',(-1.,0.,0.));
#521=DIRECTION('',(0.,0.,-1.));
#522=DIRECTION('center_axis',(0.,0.,-1.));
#523=DIRECTION('ref_axis',(-1.,0.,0.));
#524=DIRECTION('center_axis',(0.,0.,1.));
#525=DIRECTION('ref_axis',(-1.,0.,0.));
#526=DIRECTION('center_axis',(0.,0.,-1.));
#527=DIRECTION('ref_axis',(-1.,0.,0.));
#528=DIRECTION('',(0.,0.,-1.));
#529=DIRECTION('center_axis',(0.,0.,-1.));
#530=DIRECTION('ref_axis',(-1.,0.,0.));
#531=DIRECTION('center_axis',(0.,0.,1.));
#532=DIRECTION('ref_axis',(-1.,0.,0.));
#533=DIRECTION('center_axis',(0.,1.,0.));
#534=DIRECTION('ref_axis',(-1.,0.,0.));
#535=DIRECTION('',(-1.,0.,0.));
#536=DIRECTION('',(0.,0.,1.));
#537=DIRECTION('',(0.,0.,1.));
#538=DIRECTION('center_axis',(1.,0.,0.));
#539=DIRECTION('ref_axis',(0.,1.,0.));
#540=DIRECTION('',(0.,1.,0.));
#541=DIRECTION('',(0.,0.,1.));
#542=DIRECTION('center_axis',(0.,-1.,0.));
#543=DIRECTION('ref_axis',(1.,0.,0.));
#544=DIRECTION('',(1.,0.,0.));
#545=DIRECTION('',(0.,0.,1.));
#546=DIRECTION('center_axis',(-1.,0.,0.));
#547=DIRECTION('ref_axis',(0.,-1.,0.));
#548=DIRECTION('',(0.,-1.,0.));
#549=DIRECTION('center_axis',(0.,0.,1.));
#550=DIRECTION('ref_axis',(1.,0.,0.));
#551=CARTESIAN_POINT('',(0.,0.,0.));
#552=CARTESIAN_POINT('Origin',(205.,45.,30.));
#553=CARTESIAN_POINT('',(208.3,45.,24.));
#554=CARTESIAN_POINT('Origin',(205.,45.,24.));
#555=CARTESIAN_POINT('',(208.3,45.,0.));
#556=CARTESIAN_POINT('',(208.3,45.,30.));
#557=CARTESIAN_POINT('Origin',(205.,45.,0.));
#558=CARTESIAN_POINT('Origin',(45.,205.,30.));
#559=CARTESIAN_POINT('',(48.3,205.,24.));
#560=CARTESIAN_POINT('Origin',(45.,205.,24.));
#561=CARTESIAN_POINT('',(48.3,205.,0.));
#562=CARTESIAN_POINT('',(48.3,205.,30.));
#563=CARTESIAN_POINT('Origin',(45.,205.,0.));
#564=CARTESIAN_POINT('Origin',(45.,45.,30.));
#565=CARTESIAN_POINT('',(48.3,45.,24.));
#566=CARTESIAN_POINT('Origin',(45.,45.,24.));
#567=CARTESIAN_POINT('',(48.3,45.,0.));
#568=CARTESIAN_POINT('',(48.3,45.,30.));
#569=CARTESIAN_POINT('Origin',(45.,45.,0.));
#570=CARTESIAN_POINT('Origin',(205.,205.,30.));
#571=CARTESIAN_POINT('',(208.3,205.,24.));
#572=CARTESIAN_POINT('Origin',(205.,205.,24.));
#573=CARTESIAN_POINT('',(208.3,205.,0.));
#574=CARTESIAN_POINT('',(208.3,205.,30.));
#575=CARTESIAN_POINT('Origin',(205.,205.,0.));
#576=CARTESIAN_POINT('Origin',(205.,205.,30.));
#577=CARTESIAN_POINT('',(210.5,205.,30.));
#578=CARTESIAN_POINT('Origin',(205.,205.,30.));
#579=CARTESIAN_POINT('',(210.5,205.,24.));
#580=CARTESIAN_POINT('',(210.5,205.,30.));
#581=CARTESIAN_POINT('Origin',(205.,205.,24.));
#582=CARTESIAN_POINT('Origin',(205.,205.,24.));
#583=CARTESIAN_POINT('Origin',(205.,45.,30.));
#584=CARTESIAN_POINT('',(210.5,45.,30.));
#585=CARTESIAN_POINT('Origin',(205.,45.,30.));
#586=CARTESIAN_POINT('',(210.5,45.,24.));
#587=CARTESIAN_POINT('',(210.5,45.,30.));
#588=CARTESIAN_POINT('Origin',(205.,45.,24.));
#589=CARTESIAN_POINT('Origin',(205.,45.,24.));
#590=CARTESIAN_POINT('Origin',(45.,205.,30.));
#591=CARTESIAN_POINT('',(50.5,205.,30.));
#592=CARTESIAN_POINT('Origin',(45.,205.,30.));
#593=CARTESIAN_POINT('',(50.5,205.,24.));
#594=CARTESIAN_POINT('',(50.5,205.,30.));
#595=CARTESIAN_POINT('Origin',(45.,205.,24.));
#596=CARTESIAN_POINT('Origin',(45.,205.,24.));
#597=CARTESIAN_POINT('Origin',(45.,45.,30.));
#598=CARTESIAN_POINT('',(50.5,45.,30.));
#599=CARTESIAN_POINT('Origin',(45.,45.,30.));
#600=CARTESIAN_POINT('',(50.5,45.,24.));
#601=CARTESIAN_POINT('',(50.5,45.,30.));
#602=CARTESIAN_POINT('Origin',(45.,45.,24.));
#603=CARTESIAN_POINT('Origin',(45.,45.,24.));
#604=CARTESIAN_POINT('Origin',(125.,125.,30.));
#605=CARTESIAN_POINT('',(0.,250.,30.));
#606=CARTESIAN_POINT('',(0.,0.,30.));
#607=CARTESIAN_POINT('',(0.,250.,30.));
#608=CARTESIAN_POINT('',(250.,0.,30.));
#609=CARTESIAN_POINT('',(0.,0.,30.));
#610=CARTESIAN_POINT('',(250.,250.,30.));
#611=CARTESIAN_POINT('',(250.,0.,30.));
#612=CARTESIAN_POINT('',(250.,250.,30.));
#613=CARTESIAN_POINT('',(47.5,125.,30.));
#614=CARTESIAN_POINT('Origin',(45.,125.,30.));
#615=CARTESIAN_POINT('',(207.5,125.,30.));
#616=CARTESIAN_POINT('Origin',(205.,125.,30.));
#617=CARTESIAN_POINT('',(185.,125.,30.));
#618=CARTESIAN_POINT('Origin',(125.,125.,30.));
#619=CARTESIAN_POINT('Origin',(45.,125.,30.));
#620=CARTESIAN_POINT('',(47.5,125.,18.));
#621=CARTESIAN_POINT('',(47.5,125.,30.));
#622=CARTESIAN_POINT('Origin',(45.,125.,18.));
#623=CARTESIAN_POINT('Origin',(45.,125.,18.));
#624=CARTESIAN_POINT('Origin',(205.,125.,30.));
#625=CARTESIAN_POINT('',(207.5,125.,18.));
#626=CARTESIAN_POINT('',(207.5,125.,30.));
#627=CARTESIAN_POINT('Origin',(205.,125.,18.));
#628=CARTESIAN_POINT('Origin',(205.,125.,18.));
#629=CARTESIAN_POINT('Origin',(125.,125.,30.));
#630=CARTESIAN_POINT('',(185.,125.,20.));
#631=CARTESIAN_POINT('',(185.,125.,30.));
#632=CARTESIAN_POINT('Origin',(125.,125.,20.));
#633=CARTESIAN_POINT('Origin',(125.,125.,20.));
#634=CARTESIAN_POINT('Origin',(250.,250.,0.));
#635=CARTESIAN_POINT('',(250.,250.,0.));
#636=CARTESIAN_POINT('',(0.,250.,0.));
#637=CARTESIAN_POINT('',(250.,250.,0.));
#638=CARTESIAN_POINT('',(0.,250.,0.));
#639=CARTESIAN_POINT('',(250.,250.,0.));
#640=CARTESIAN_POINT('Origin',(250.,0.,0.));
#641=CARTESIAN_POINT('',(250.,0.,0.));
#642=CARTESIAN_POINT('',(250.,0.,0.));
#643=CARTESIAN_POINT('',(250.,0.,0.));
#644=CARTESIAN_POINT('Origin',(0.,0.,0.));
#645=CARTESIAN_POINT('',(0.,0.,0.));
#646=CARTESIAN_POINT('',(0.,0.,0.));
#647=CARTESIAN_POINT('',(0.,0.,0.));
#648=CARTESIAN_POINT('Origin',(0.,250.,0.));
#649=CARTESIAN_POINT('',(0.,250.,0.));
#650=CARTESIAN_POINT('Origin',(125.,125.,0.));
#651=UNCERTAINTY_MEASURE_WITH_UNIT(LENGTH_MEASURE(0.01),#655,
'DISTANCE_ACCURACY_VALUE',
'Maximum model space distance between geometric entities at asserted c
onnectivities');
#652=UNCERTAINTY_MEASURE_WITH_UNIT(LENGTH_MEASURE(0.01),#655,
'DISTANCE_ACCURACY_VALUE',
'Maximum model space distance between geometric entities at asserted c
onnectivities');
#653=(
GEOMETRIC_REPRESENTATION_CONTEXT(3)
GLOBAL_UNCERTAINTY_ASSIGNED_CONTEXT((#651))
GLOBAL_UNIT_ASSIGNED_CONTEXT((#655,#657,#658))
REPRESENTATION_CONTEXT('','3D')
);
#654=(
GEOMETRIC_REPRESENTATION_CONTEXT(3)
GLOBAL_UNCERTAINTY_ASSIGNED_CONTEXT((#652))
GLOBAL_UNIT_ASSIGNED_CONTEXT((#655,#657,#658))
REPRESENTATION_CONTEXT('','3D')
);
#655=(
LENGTH_UNIT()
NAMED_UNIT(*)
SI_UNIT(.MILLI.,.METRE.)
);
#656=(
LENGTH_UNIT()
NAMED_UNIT(*)
SI_UNIT($,.METRE.)
);
#657=(
NAMED_UNIT(*)
PLANE_ANGLE_UNIT()
SI_UNIT($,.RADIAN.)
);
#658=(
NAMED_UNIT(*)
SI_UNIT($,.STERADIAN.)
SOLID_ANGLE_UNIT()
);
#659=SHAPE_DEFINITION_REPRESENTATION(#660,#661);
#660=PRODUCT_DEFINITION_SHAPE('',$,#663);
#661=SHAPE_REPRESENTATION('',(#387),#653);
#662=PRODUCT_DEFINITION_CONTEXT('part definition',#667,'design');
#663=PRODUCT_DEFINITION('\X2\691C8A3C752830B530F330D730EB\X0\6maru',
'\X2\691C8A3C752830B530F330D730EB\X0\6maru v1',#664,#662);
#664=PRODUCT_DEFINITION_FORMATION('',$,#669);
#665=PRODUCT_RELATED_PRODUCT_CATEGORY('\X2\691C8A3C752830B530F330D730EB\X0\6
maru v1','\X2\691C8A3C752830B530F330D730EB\X0\6maru v1',(#669));
#666=APPLICATION_PROTOCOL_DEFINITION('international standard',
'automotive_design',2009,#667);
#667=APPLICATION_CONTEXT(
'Core Data for Automotive Mechanical Design Process');
#668=PRODUCT_CONTEXT('part definition',#667,'mechanical');
#669=PRODUCT('\X2\691C8A3C752830B530F330D730EB\X0\6maru',
'\X2\691C8A3C752830B530F330D730EB\X0\6maru v1',$,(#668));
#670=PRESENTATION_STYLE_ASSIGNMENT((#671));
#671=SURFACE_STYLE_USAGE(.BOTH.,#672);
#672=SURFACE_SIDE_STYLE('',(#673));
#673=SURFACE_STYLE_FILL_AREA(#674);
#674=FILL_AREA_STYLE('\X2\92FC\X0\ - \X2\30B530C630F3\X0\',(#675));
#675=FILL_AREA_STYLE_COLOUR('\X2\92FC\X0\ - \X2\30B530C630F3\X0\',#676);
#676=COLOUR_RGB('\X2\92FC\X0\ - \X2\30B530C630F3\X0\',0.627450980392157,
0.627450980392157,0.627450980392157);
ENDSEC;
END-ISO-10303-21;
